ISO-10303-21;
HEADER;
FILE_DESCRIPTION (( 'STEP AP203' ),
    '1' );
FILE_NAME ('Q-AZHWP-12.7-1064-M.STEP',
    '2020-12-22T09:06:38',
    ( '' ),
    ( '' ),
    'SwSTEP 2.0',
    'SolidWorks 2020',
    '' );
FILE_SCHEMA (( 'CONFIG_CONTROL_DESIGN' ));
ENDSEC;

DATA;
#1 = AXIS2_PLACEMENT_3D ( 'NONE', #150, #233, #2 ) ;
#2 = DIRECTION ( 'NONE',  ( 0.000000000000000000, 0.000000000000000000, 1.000000000000000000 ) ) ;
#3 = CYLINDRICAL_SURFACE ( 'NONE', #114, 12.69999999999999929 ) ;
#4 = EDGE_CURVE ( 'NONE', #53, #76, #25, .T. ) ;
#5 = APPROVAL ( #163, 'UNSPECIFIED' ) ;
#6 = DIRECTION ( 'NONE',  ( 0.000000000000000000, 0.000000000000000000, 1.000000000000000000 ) ) ;
#7 = DIRECTION ( 'NONE',  ( -1.000000000000000000, -0.000000000000000000, -0.000000000000000000 ) ) ;
#8 = CARTESIAN_POINT ( 'NONE',  ( -1.500000000000000444, 0.000000000000000000, 0.000000000000000000 ) ) ;
#9 = ORGANIZATION ( 'UNSPECIFIED', 'UNSPECIFIED', '' ) ;
#10 = FACE_OUTER_BOUND ( 'NONE', #281, .T. ) ;
#11 = DATE_AND_TIME ( #69, #244 ) ;
#12 = EDGE_CURVE ( 'NONE', #139, #203, #96, .T. ) ;
#13 = FACE_OUTER_BOUND ( 'NONE', #277, .T. ) ;
#14 = DIRECTION ( 'NONE',  ( -1.000000000000000000, -0.000000000000000000, -0.000000000000000000 ) ) ;
#15 = ORIENTED_EDGE ( 'NONE', *, *, #124, .T. ) ;
#16 = ORIENTED_EDGE ( 'NONE', *, *, #12, .T. ) ;
#17 = EDGE_CURVE ( 'NONE', #99, #330, #49, .T. ) ;
#18 = VERTEX_POINT ( 'NONE', #146 ) ;
#19 = ORIENTED_EDGE ( 'NONE', *, *, #104, .F. ) ;
#20 = CARTESIAN_POINT ( 'NONE',  ( -3.000000000000000000, 6.349999999999999645, 0.000000000000000000 ) ) ;
#21 = ORIENTED_EDGE ( 'NONE', *, *, #17, .F. ) ;
#22 = APPROVAL_ROLE ( '' ) ;
#23 = EDGE_CURVE ( 'NONE', #139, #141, #204, .T. ) ;
#24 = FACE_OUTER_BOUND ( 'NONE', #216, .T. ) ;
#25 = CIRCLE ( 'NONE', #243, 12.69999999999999929 ) ;
#26 = LINE ( 'NONE', #202, #92 ) ;
#27 = CARTESIAN_POINT ( 'NONE',  ( -2.999999999999999556, 0.000000000000000000, 0.000000000000000000 ) ) ;
#28 = CARTESIAN_POINT ( 'NONE',  ( 1.500000000000000888, 7.776507174585692163E-16, -6.349999999999999645 ) ) ;
#29 = VECTOR ( 'NONE', #14, 1000.000000000000000 ) ;
#30 = CARTESIAN_POINT ( 'NONE',  ( -1.500000000000000444, 6.349999999999999645, 0.000000000000000000 ) ) ;
#31 = CARTESIAN_POINT ( 'NONE',  ( -1.614212418857619014, 0.000000000000000000, 0.000000000000000000 ) ) ;
#32 = CC_DESIGN_DATE_AND_TIME_ASSIGNMENT ( #286, #252, ( #57 ) ) ;
#33 = DIRECTION ( 'NONE',  ( 0.000000000000000000, 0.000000000000000000, 1.000000000000000000 ) ) ;
#34 = CIRCLE ( 'NONE', #313, 6.349999999999999645 ) ;
#35 = CYLINDRICAL_SURFACE ( 'NONE', #257, 6.349999999999999645 ) ;
#36 = CALENDAR_DATE ( 2020, 22, 12 ) ;
#37 = DIRECTION ( 'NONE',  ( -1.000000000000000000, -0.000000000000000000, -0.000000000000000000 ) ) ;
#38 = DIRECTION ( 'NONE',  ( -0.000000000000000000, 0.000000000000000000, 1.000000000000000000 ) ) ;
#39 = FACE_BOUND ( 'NONE', #225, .T. ) ;
#40 = PERSON_AND_ORGANIZATION ( #266, #9 ) ;
#41 = CARTESIAN_POINT ( 'NONE',  ( -1.614212418857619014, 0.000000000000000000, 6.349999999999999645 ) ) ;
#42 = ORIENTED_EDGE ( 'NONE', *, *, #23, .T. ) ;
#43 = CIRCLE ( 'NONE', #291, 12.69999999999999929 ) ;
#44 = DIRECTION ( 'NONE',  ( -1.000000000000000000, -0.000000000000000000, -0.000000000000000000 ) ) ;
#45 = LOCAL_TIME ( 17, 6, 38.00000000000000000, #162 ) ;
#46 = PERSON_AND_ORGANIZATION ( #266, #9 ) ;
#47 = EDGE_CURVE ( 'NONE', #74, #18, #59, .T. ) ;
#48 = ORIENTED_EDGE ( 'NONE', *, *, #60, .F. ) ;
#49 = LINE ( 'NONE', #98, #212 ) ;
#50 = ORIENTED_EDGE ( 'NONE', *, *, #104, .T. ) ;
#51 = EDGE_LOOP ( 'NONE', ( #228, #158, #50, #282 ) ) ;
#52 = AXIS2_PLACEMENT_3D ( 'NONE', #271, #219, #38 ) ;
#53 = VERTEX_POINT ( 'NONE', #240 ) ;
#54 = PERSON_AND_ORGANIZATION ( #266, #9 ) ;
#55 = AXIS2_PLACEMENT_3D ( 'NONE', #8, #210, #83 ) ;
#56 = LOCAL_TIME ( 17, 6, 38.00000000000000000, #101 ) ;
#57 = PRODUCT_DEFINITION ( 'UNKNOWN', '', #120, #333 ) ;
#58 = CARTESIAN_POINT ( 'NONE',  ( -2.999999999999999556, 0.000000000000000000, 0.000000000000000000 ) ) ;
#59 = LINE ( 'NONE', #153, #249 ) ;
#60 = EDGE_CURVE ( 'NONE', #53, #115, #211, .T. ) ;
#61 = FACE_OUTER_BOUND ( 'NONE', #256, .T. ) ;
#62 =( GEOMETRIC_REPRESENTATION_CONTEXT ( 3 ) GLOBAL_UNCERTAINTY_ASSIGNED_CONTEXT ( ( #254 ) ) GLOBAL_UNIT_ASSIGNED_CONTEXT ( ( #272, #209, #129 ) ) REPRESENTATION_CONTEXT ( 'NONE', 'WORKASPACE' ) );
#63 = CARTESIAN_POINT ( 'NONE',  ( -1.614212418857619014, 0.000000000000000000, 0.000000000000000000 ) ) ;
#64 = DIRECTION ( 'NONE',  ( -1.000000000000000000, -0.000000000000000000, -0.000000000000000000 ) ) ;
#65 = EDGE_CURVE ( 'NONE', #168, #203, #34, .T. ) ;
#66 = CIRCLE ( 'NONE', #268, 6.349999999999999645 ) ;
#67 = EDGE_CURVE ( 'NONE', #141, #168, #245, .T. ) ;
#68 = CARTESIAN_POINT ( 'NONE',  ( 1.500000000000000888, 0.000000000000000000, 0.000000000000000000 ) ) ;
#69 = CALENDAR_DATE ( 2020, 22, 12 ) ;
#70 = CARTESIAN_POINT ( 'NONE',  ( -1.500000000000000444, 0.000000000000000000, 6.349999999999999645 ) ) ;
#71 = DIRECTION ( 'NONE',  ( -1.000000000000000000, -0.000000000000000000, -0.000000000000000000 ) ) ;
#72 = VECTOR ( 'NONE', #37, 1000.000000000000000 ) ;
#73 = DIRECTION ( 'NONE',  ( 0.000000000000000000, 0.000000000000000000, -1.000000000000000000 ) ) ;
#74 = VERTEX_POINT ( 'NONE', #70 ) ;
#75 = CYLINDRICAL_SURFACE ( 'NONE', #1, 6.349999999999999645 ) ;
#76 = VERTEX_POINT ( 'NONE', #259 ) ;
#77 = ADVANCED_FACE ( 'NONE', ( #39, #13 ), #169, .F. ) ;
#78 = AXIS2_PLACEMENT_3D ( 'NONE', #27, #151, #91 ) ;
#79 = ORIENTED_EDGE ( 'NONE', *, *, #12, .F. ) ;
#80 = PERSON_AND_ORGANIZATION_ROLE ( 'creator' ) ;
#81 = APPROVAL ( #279, 'UNSPECIFIED' ) ;
#82 = DIRECTION ( 'NONE',  ( 0.000000000000000000, 0.000000000000000000, -1.000000000000000000 ) ) ;
#83 = DIRECTION ( 'NONE',  ( 0.000000000000000000, 0.000000000000000000, -1.000000000000000000 ) ) ;
#84 = PLANE ( 'NONE',  #85 ) ;
#85 = AXIS2_PLACEMENT_3D ( 'NONE', #190, #131, #214 ) ;
#86 = ADVANCED_BREP_SHAPE_REPRESENTATION ( 'Q-AZHWP-12.7-1064-M', ( #290, #295 ), #62 ) ;
#87 = CYLINDRICAL_SURFACE ( 'NONE', #186, 12.69999999999999929 ) ;
#88 = DIRECTION ( 'NONE',  ( -1.000000000000000000, -0.000000000000000000, -0.000000000000000000 ) ) ;
#89 = CC_DESIGN_PERSON_AND_ORGANIZATION_ASSIGNMENT ( #137, #310, ( #237 ) ) ;
#90 = APPROVAL_ROLE ( '' ) ;
#91 = DIRECTION ( 'NONE',  ( 0.000000000000000000, 0.000000000000000000, 1.000000000000000000 ) ) ;
#92 = VECTOR ( 'NONE', #305, 1000.000000000000000 ) ;
#93 = SHAPE_DEFINITION_REPRESENTATION ( #307, #86 ) ;
#94 = EDGE_CURVE ( 'NONE', #115, #273, #43, .T. ) ;
#95 = CARTESIAN_POINT ( 'NONE',  ( 3.000000000000000000, 0.000000000000000000, 0.000000000000000000 ) ) ;
#96 = LINE ( 'NONE', #197, #192 ) ;
#97 = CIRCLE ( 'NONE', #134, 6.349999999999999645 ) ;
#98 = CARTESIAN_POINT ( 'NONE',  ( -1.614212418857619014, 7.776507174585692163E-16, -6.349999999999999645 ) ) ;
#99 = VERTEX_POINT ( 'NONE', #224 ) ;
#100 = ORIENTED_EDGE ( 'NONE', *, *, #187, .F. ) ;
#101 = COORDINATED_UNIVERSAL_TIME_OFFSET ( 8, 0, .AHEAD. ) ;
#102 = CARTESIAN_POINT ( 'NONE',  ( 3.000000000000000000, 0.000000000000000000, 0.000000000000000000 ) ) ;
#103 = CARTESIAN_POINT ( 'NONE',  ( -1.614212418857619014, 0.000000000000000000, 0.000000000000000000 ) ) ;
#104 = EDGE_CURVE ( 'NONE', #330, #18, #160, .T. ) ;
#105 = AXIS2_PLACEMENT_3D ( 'NONE', #102, #275, #217 ) ;
#106 = FACE_OUTER_BOUND ( 'NONE', #118, .T. ) ;
#107 = PLANE ( 'NONE',  #52 ) ;
#108 = CARTESIAN_POINT ( 'NONE',  ( -3.000000000000000000, 1.555301434917138433E-15, -12.69999999999999929 ) ) ;
#109 = AXIS2_PLACEMENT_3D ( 'NONE', #58, #7, #270 ) ;
#110 = ORIENTED_EDGE ( 'NONE', *, *, #65, .F. ) ;
#111 = ADVANCED_FACE ( 'NONE', ( #176 ), #75, .F. ) ;
#112 = MECHANICAL_CONTEXT ( 'NONE', #142, 'mechanical' ) ;
#113 = DATE_AND_TIME ( #36, #56 ) ;
#114 = AXIS2_PLACEMENT_3D ( 'NONE', #103, #289, #174 ) ;
#115 = VERTEX_POINT ( 'NONE', #264 ) ;
#116 = CC_DESIGN_PERSON_AND_ORGANIZATION_ASSIGNMENT ( #220, #80, ( #120 ) ) ;
#117 = APPROVAL_ROLE ( '' ) ;
#118 = EDGE_LOOP ( 'NONE', ( #21, #285, #119, #335 ) ) ;
#119 = ORIENTED_EDGE ( 'NONE', *, *, #47, .T. ) ;
#120 = PRODUCT_DEFINITION_FORMATION_WITH_SPECIFIED_SOURCE ( 'ANY', '', #175, .NOT_KNOWN. ) ;
#121 = ORIENTED_EDGE ( 'NONE', *, *, #298, .F. ) ;
#122 = ORIENTED_EDGE ( 'NONE', *, *, #298, .T. ) ;
#123 = APPROVAL_STATUS ( 'not_yet_approved' ) ;
#124 = EDGE_CURVE ( 'NONE', #76, #273, #26, .T. ) ;
#125 = DATE_AND_TIME ( #326, #280 ) ;
#126 = CARTESIAN_POINT ( 'NONE',  ( -1.500000000000000444, 0.000000000000000000, 0.000000000000000000 ) ) ;
#127 = FACE_OUTER_BOUND ( 'NONE', #195, .T. ) ;
#128 = CIRCLE ( 'NONE', #320, 12.69999999999999929 ) ;
#129 =( NAMED_UNIT ( * ) SI_UNIT ( $, .STERADIAN. ) SOLID_ANGLE_UNIT ( ) );
#130 = DIRECTION ( 'NONE',  ( 1.000000000000000000, 0.000000000000000000, 0.000000000000000000 ) ) ;
#131 = DIRECTION ( 'NONE',  ( -1.000000000000000000, 0.000000000000000000, -0.000000000000000000 ) ) ;
#132 = EDGE_CURVE ( 'NONE', #99, #74, #221, .T. ) ;
#133 = CARTESIAN_POINT ( 'NONE',  ( 0.000000000000000000, 0.000000000000000000, 0.000000000000000000 ) ) ;
#134 = AXIS2_PLACEMENT_3D ( 'NONE', #155, #64, #6 ) ;
#135 = FACE_OUTER_BOUND ( 'NONE', #51, .T. ) ;
#136 = APPLICATION_PROTOCOL_DEFINITION ( 'international standard', 'config_control_design', 1994, #142 ) ;
#137 = PERSON_AND_ORGANIZATION ( #266, #9 ) ;
#138 = CC_DESIGN_APPROVAL ( #81, ( #120 ) ) ;
#139 = VERTEX_POINT ( 'NONE', #177 ) ;
#140 = PERSON_AND_ORGANIZATION_ROLE ( 'creator' ) ;
#141 = VERTEX_POINT ( 'NONE', #260 ) ;
#142 = APPLICATION_CONTEXT ( 'configuration controlled 3d designs of mechanical parts and assemblies' ) ;
#143 = DIRECTION ( 'NONE',  ( 1.000000000000000000, 0.000000000000000000, 0.000000000000000000 ) ) ;
#144 = ORIENTED_EDGE ( 'NONE', *, *, #67, .F. ) ;
#145 = ADVANCED_FACE ( 'NONE', ( #127 ), #107, .F. ) ;
#146 = CARTESIAN_POINT ( 'NONE',  ( -2.999999999999999556, 0.000000000000000000, 6.349999999999999645 ) ) ;
#147 = ORIENTED_EDGE ( 'NONE', *, *, #181, .T. ) ;
#148 = APPROVAL_DATE_TIME ( #166, #5 ) ;
#149 = ADVANCED_FACE ( 'NONE', ( #135 ), #300, .F. ) ;
#150 = CARTESIAN_POINT ( 'NONE',  ( -1.614212418857619014, 0.000000000000000000, 0.000000000000000000 ) ) ;
#151 = DIRECTION ( 'NONE',  ( -1.000000000000000000, -0.000000000000000000, -0.000000000000000000 ) ) ;
#152 = CC_DESIGN_PERSON_AND_ORGANIZATION_ASSIGNMENT ( #54, #140, ( #57 ) ) ;
#153 = CARTESIAN_POINT ( 'NONE',  ( -1.614212418857619014, 0.000000000000000000, 6.349999999999999645 ) ) ;
#154 = DIRECTION ( 'NONE',  ( -1.000000000000000000, -0.000000000000000000, -0.000000000000000000 ) ) ;
#155 = CARTESIAN_POINT ( 'NONE',  ( 1.500000000000000888, 0.000000000000000000, 0.000000000000000000 ) ) ;
#156 = ADVANCED_FACE ( 'NONE', ( #189 ), #316, .F. ) ;
#157 = DIRECTION ( 'NONE',  ( 0.000000000000000000, 0.000000000000000000, 1.000000000000000000 ) ) ;
#158 = ORIENTED_EDGE ( 'NONE', *, *, #17, .T. ) ;
#159 = FACE_OUTER_BOUND ( 'NONE', #173, .T. ) ;
#160 = CIRCLE ( 'NONE', #78, 6.349999999999999645 ) ;
#161 = APPROVAL_PERSON_ORGANIZATION ( #205, #81, #22 ) ;
#162 = COORDINATED_UNIVERSAL_TIME_OFFSET ( 8, 0, .AHEAD. ) ;
#163 = APPROVAL_STATUS ( 'not_yet_approved' ) ;
#164 = DIRECTION ( 'NONE',  ( -1.000000000000000000, -0.000000000000000000, -0.000000000000000000 ) ) ;
#165 = DIRECTION ( 'NONE',  ( 1.000000000000000000, 0.000000000000000000, 0.000000000000000000 ) ) ;
#166 = DATE_AND_TIME ( #299, #45 ) ;
#167 = CIRCLE ( 'NONE', #109, 6.349999999999999645 ) ;
#168 = VERTEX_POINT ( 'NONE', #287 ) ;
#169 = PLANE ( 'NONE',  #265 ) ;
#170 = DIRECTION ( 'NONE',  ( -1.000000000000000000, -0.000000000000000000, -0.000000000000000000 ) ) ;
#171 = ADVANCED_FACE ( 'NONE', ( #24 ), #3, .T. ) ;
#172 = ORIENTED_EDGE ( 'NONE', *, *, #4, .T. ) ;
#173 = EDGE_LOOP ( 'NONE', ( #261, #301 ) ) ;
#174 = DIRECTION ( 'NONE',  ( 0.000000000000000000, 0.000000000000000000, 1.000000000000000000 ) ) ;
#175 = PRODUCT ( 'Q-AZHWP-12.7-1064-M', 'Q-AZHWP-12.7-1064-M', '', ( #112 ) ) ;
#176 = FACE_OUTER_BOUND ( 'NONE', #332, .T. ) ;
#177 = CARTESIAN_POINT ( 'NONE',  ( 3.000000000000000888, 7.776507174585692163E-16, -6.349999999999999645 ) ) ;
#178 = ORIENTED_EDGE ( 'NONE', *, *, #132, .F. ) ;
#179 = AXIS2_PLACEMENT_3D ( 'NONE', #331, #182, #215 ) ;
#180 = APPROVAL_DATE_TIME ( #11, #284 ) ;
#181 = EDGE_CURVE ( 'NONE', #273, #115, #128, .T. ) ;
#182 = DIRECTION ( 'NONE',  ( -1.000000000000000000, -0.000000000000000000, -0.000000000000000000 ) ) ;
#183 = EDGE_CURVE ( 'NONE', #76, #53, #236, .T. ) ;
#184 = PERSON_AND_ORGANIZATION ( #266, #9 ) ;
#185 = DIRECTION ( 'NONE',  ( -1.000000000000000000, -0.000000000000000000, -0.000000000000000000 ) ) ;
#186 = AXIS2_PLACEMENT_3D ( 'NONE', #31, #88, #322 ) ;
#187 = EDGE_CURVE ( 'NONE', #18, #330, #167, .T. ) ;
#188 = DIRECTION ( 'NONE',  ( 1.000000000000000000, 0.000000000000000000, 0.000000000000000000 ) ) ;
#189 = FACE_OUTER_BOUND ( 'NONE', #223, .T. ) ;
#190 = CARTESIAN_POINT ( 'NONE',  ( 3.000000000000000000, 12.69999999999999929, 0.000000000000000000 ) ) ;
#191 = APPROVAL_DATE_TIME ( #125, #81 ) ;
#192 = VECTOR ( 'NONE', #170, 1000.000000000000000 ) ;
#193 = SECURITY_CLASSIFICATION_LEVEL ( 'unclassified' ) ;
#194 = CARTESIAN_POINT ( 'NONE',  ( -3.000000000000000000, 0.000000000000000000, 0.000000000000000000 ) ) ;
#195 = EDGE_LOOP ( 'NONE', ( #110, #199 ) ) ;
#196 = DIRECTION ( 'NONE',  ( 0.000000000000000000, 0.000000000000000000, 1.000000000000000000 ) ) ;
#197 = CARTESIAN_POINT ( 'NONE',  ( -1.614212418857619014, 7.776507174585692163E-16, -6.349999999999999645 ) ) ;
#198 = AXIS2_PLACEMENT_3D ( 'NONE', #63, #294, #239 ) ;
#199 = ORIENTED_EDGE ( 'NONE', *, *, #246, .F. ) ;
#200 = DIRECTION ( 'NONE',  ( -1.000000000000000000, -0.000000000000000000, -0.000000000000000000 ) ) ;
#201 = ORIENTED_EDGE ( 'NONE', *, *, #23, .F. ) ;
#202 = CARTESIAN_POINT ( 'NONE',  ( -1.614212418857619014, 1.555301434917138433E-15, -12.69999999999999929 ) ) ;
#203 = VERTEX_POINT ( 'NONE', #28 ) ;
#204 = CIRCLE ( 'NONE', #179, 6.349999999999999645 ) ;
#205 = PERSON_AND_ORGANIZATION ( #266, #9 ) ;
#206 = DIRECTION ( 'NONE',  ( 0.000000000000000000, 0.000000000000000000, 1.000000000000000000 ) ) ;
#207 = ADVANCED_FACE ( 'NONE', ( #61 ), #247, .F. ) ;
#208 = CIRCLE ( 'NONE', #55, 6.349999999999999645 ) ;
#209 =( NAMED_UNIT ( * ) PLANE_ANGLE_UNIT ( ) SI_UNIT ( $, .RADIAN. ) );
#210 = DIRECTION ( 'NONE',  ( 1.000000000000000000, 0.000000000000000000, 0.000000000000000000 ) ) ;
#211 = LINE ( 'NONE', #312, #72 ) ;
#212 = VECTOR ( 'NONE', #200, 1000.000000000000000 ) ;
#213 = CC_DESIGN_APPROVAL ( #5, ( #57 ) ) ;
#214 = DIRECTION ( 'NONE',  ( -0.000000000000000000, 0.000000000000000000, 1.000000000000000000 ) ) ;
#215 = DIRECTION ( 'NONE',  ( 0.000000000000000000, 0.000000000000000000, 1.000000000000000000 ) ) ;
#216 = EDGE_LOOP ( 'NONE', ( #327, #250, #323, #231 ) ) ;
#217 = DIRECTION ( 'NONE',  ( 0.000000000000000000, 0.000000000000000000, 1.000000000000000000 ) ) ;
#218 = PRODUCT_RELATED_PRODUCT_CATEGORY ( 'detail', '', ( #175 ) ) ;
#219 = DIRECTION ( 'NONE',  ( -1.000000000000000000, 0.000000000000000000, -0.000000000000000000 ) ) ;
#220 = PERSON_AND_ORGANIZATION ( #266, #9 ) ;
#221 = CIRCLE ( 'NONE', #269, 6.349999999999999645 ) ;
#222 = DIRECTION ( 'NONE',  ( 0.000000000000000000, 0.000000000000000000, -1.000000000000000000 ) ) ;
#223 = EDGE_LOOP ( 'NONE', ( #258, #178 ) ) ;
#224 = CARTESIAN_POINT ( 'NONE',  ( -1.500000000000000444, 7.776507174585692163E-16, -6.349999999999999645 ) ) ;
#225 = EDGE_LOOP ( 'NONE', ( #100, #19 ) ) ;
#226 = CLOSED_SHELL ( 'NONE', ( #274, #149, #207, #145, #111, #293, #77, #171, #315, #156 ) ) ;
#227 = CC_DESIGN_SECURITY_CLASSIFICATION ( #237, ( #120 ) ) ;
#228 = ORIENTED_EDGE ( 'NONE', *, *, #230, .T. ) ;
#229 = CARTESIAN_POINT ( 'NONE',  ( -3.000000000000000000, 0.000000000000000000, 0.000000000000000000 ) ) ;
#230 = EDGE_CURVE ( 'NONE', #74, #99, #208, .T. ) ;
#231 = ORIENTED_EDGE ( 'NONE', *, *, #181, .F. ) ;
#232 = COORDINATED_UNIVERSAL_TIME_OFFSET ( 8, 0, .AHEAD. ) ;
#233 = DIRECTION ( 'NONE',  ( -1.000000000000000000, -0.000000000000000000, -0.000000000000000000 ) ) ;
#234 = CC_DESIGN_PERSON_AND_ORGANIZATION_ASSIGNMENT ( #184, #292, ( #175 ) ) ;
#235 = APPLICATION_CONTEXT ( 'configuration controlled 3d designs of mechanical parts and assemblies' ) ;
#236 = CIRCLE ( 'NONE', #105, 12.69999999999999929 ) ;
#237 = SECURITY_CLASSIFICATION ( '', '', #193 ) ;
#238 = DIRECTION ( 'NONE',  ( 0.000000000000000000, 0.000000000000000000, 1.000000000000000000 ) ) ;
#239 = DIRECTION ( 'NONE',  ( 0.000000000000000000, 0.000000000000000000, 1.000000000000000000 ) ) ;
#240 = CARTESIAN_POINT ( 'NONE',  ( 3.000000000000000000, 0.000000000000000000, 12.69999999999999929 ) ) ;
#241 = CC_DESIGN_PERSON_AND_ORGANIZATION_ASSIGNMENT ( #40, #325, ( #120 ) ) ;
#242 = CARTESIAN_POINT ( 'NONE',  ( 3.000000000000000888, 0.000000000000000000, 0.000000000000000000 ) ) ;
#243 = AXIS2_PLACEMENT_3D ( 'NONE', #95, #71, #328 ) ;
#244 = LOCAL_TIME ( 17, 6, 38.00000000000000000, #232 ) ;
#245 = LINE ( 'NONE', #41, #29 ) ;
#246 = EDGE_CURVE ( 'NONE', #203, #168, #97, .T. ) ;
#247 = CYLINDRICAL_SURFACE ( 'NONE', #198, 6.349999999999999645 ) ;
#248 = PERSON_AND_ORGANIZATION ( #266, #9 ) ;
#249 = VECTOR ( 'NONE', #318, 1000.000000000000000 ) ;
#250 = ORIENTED_EDGE ( 'NONE', *, *, #183, .T. ) ;
#251 = DIRECTION ( 'NONE',  ( 0.000000000000000000, 0.000000000000000000, 1.000000000000000000 ) ) ;
#252 = DATE_TIME_ROLE ( 'creation_date' ) ;
#253 = ORIENTED_EDGE ( 'NONE', *, *, #94, .T. ) ;
#254 = UNCERTAINTY_MEASURE_WITH_UNIT (LENGTH_MEASURE( 1.000000000000000082E-05 ), #272, 'distance_accuracy_value', 'NONE');
#255 = DIRECTION ( 'NONE',  ( -1.000000000000000000, -0.000000000000000000, -0.000000000000000000 ) ) ;
#256 = EDGE_LOOP ( 'NONE', ( #201, #16, #303, #144 ) ) ;
#257 = AXIS2_PLACEMENT_3D ( 'NONE', #324, #185, #33 ) ;
#258 = ORIENTED_EDGE ( 'NONE', *, *, #230, .F. ) ;
#259 = CARTESIAN_POINT ( 'NONE',  ( 3.000000000000000000, 1.555301434917138433E-15, -12.69999999999999929 ) ) ;
#260 = CARTESIAN_POINT ( 'NONE',  ( 3.000000000000000888, 0.000000000000000000, 6.349999999999999645 ) ) ;
#261 = ORIENTED_EDGE ( 'NONE', *, *, #4, .F. ) ;
#262 = CALENDAR_DATE ( 2020, 22, 12 ) ;
#263 = COORDINATED_UNIVERSAL_TIME_OFFSET ( 8, 0, .AHEAD. ) ;
#264 = CARTESIAN_POINT ( 'NONE',  ( -3.000000000000000000, 0.000000000000000000, 12.69999999999999929 ) ) ;
#265 = AXIS2_PLACEMENT_3D ( 'NONE', #20, #165, #222 ) ;
#266 = PERSON ( 'UNSPECIFIED', 'UNSPECIFIED', 'UNSPECIFIED', ('UNSPECIFIED'), ('UNSPECIFIED'), ('UNSPECIFIED') ) ;
#267 = CARTESIAN_POINT ( 'NONE',  ( -2.999999999999999556, 7.776507174585692163E-16, -6.349999999999999645 ) ) ;
#268 = AXIS2_PLACEMENT_3D ( 'NONE', #242, #154, #157 ) ;
#269 = AXIS2_PLACEMENT_3D ( 'NONE', #126, #143, #73 ) ;
#270 = DIRECTION ( 'NONE',  ( 0.000000000000000000, 0.000000000000000000, 1.000000000000000000 ) ) ;
#271 = CARTESIAN_POINT ( 'NONE',  ( 1.500000000000000444, 6.349999999999999645, 0.000000000000000000 ) ) ;
#272 =( LENGTH_UNIT ( ) NAMED_UNIT ( * ) SI_UNIT ( .MILLI., .METRE. ) );
#273 = VERTEX_POINT ( 'NONE', #108 ) ;
#274 = ADVANCED_FACE ( 'NONE', ( #10 ), #87, .T. ) ;
#275 = DIRECTION ( 'NONE',  ( -1.000000000000000000, -0.000000000000000000, -0.000000000000000000 ) ) ;
#276 = DIRECTION ( 'NONE',  ( 0.000000000000000000, 0.000000000000000000, 1.000000000000000000 ) ) ;
#277 = EDGE_LOOP ( 'NONE', ( #253, #147 ) ) ;
#278 = AXIS2_PLACEMENT_3D ( 'NONE', #334, #311, #206 ) ;
#279 = APPROVAL_STATUS ( 'not_yet_approved' ) ;
#280 = LOCAL_TIME ( 17, 6, 38.00000000000000000, #288 ) ;
#281 = EDGE_LOOP ( 'NONE', ( #172, #15, #309, #48 ) ) ;
#282 = ORIENTED_EDGE ( 'NONE', *, *, #47, .F. ) ;
#283 = ORIENTED_EDGE ( 'NONE', *, *, #67, .T. ) ;
#284 = APPROVAL ( #123, 'UNSPECIFIED' ) ;
#285 = ORIENTED_EDGE ( 'NONE', *, *, #132, .T. ) ;
#286 = DATE_AND_TIME ( #262, #296 ) ;
#287 = CARTESIAN_POINT ( 'NONE',  ( 1.500000000000000888, 0.000000000000000000, 6.349999999999999645 ) ) ;
#288 = COORDINATED_UNIVERSAL_TIME_OFFSET ( 8, 0, .AHEAD. ) ;
#289 = DIRECTION ( 'NONE',  ( -1.000000000000000000, -0.000000000000000000, -0.000000000000000000 ) ) ;
#290 = MANIFOLD_SOLID_BREP ( 'Ðý×', #226 ) ;
#291 = AXIS2_PLACEMENT_3D ( 'NONE', #194, #44, #251 ) ;
#292 = PERSON_AND_ORGANIZATION_ROLE ( 'design_owner' ) ;
#293 = ADVANCED_FACE ( 'NONE', ( #106 ), #35, .F. ) ;
#294 = DIRECTION ( 'NONE',  ( -1.000000000000000000, -0.000000000000000000, -0.000000000000000000 ) ) ;
#295 = AXIS2_PLACEMENT_3D ( 'NONE', #133, #238, #188 ) ;
#296 = LOCAL_TIME ( 17, 6, 38.00000000000000000, #263 ) ;
#297 = DATE_TIME_ROLE ( 'classification_date' ) ;
#298 = EDGE_CURVE ( 'NONE', #141, #139, #66, .T. ) ;
#299 = CALENDAR_DATE ( 2020, 22, 12 ) ;
#300 = CYLINDRICAL_SURFACE ( 'NONE', #278, 6.349999999999999645 ) ;
#301 = ORIENTED_EDGE ( 'NONE', *, *, #183, .F. ) ;
#302 = AXIS2_PLACEMENT_3D ( 'NONE', #30, #130, #82 ) ;
#303 = ORIENTED_EDGE ( 'NONE', *, *, #246, .T. ) ;
#304 = ORIENTED_EDGE ( 'NONE', *, *, #65, .T. ) ;
#305 = DIRECTION ( 'NONE',  ( -1.000000000000000000, -0.000000000000000000, -0.000000000000000000 ) ) ;
#306 = EDGE_LOOP ( 'NONE', ( #122, #42 ) ) ;
#307 = PRODUCT_DEFINITION_SHAPE ( 'NONE', 'NONE',  #57 ) ;
#308 = CC_DESIGN_APPROVAL ( #284, ( #237 ) ) ;
#309 = ORIENTED_EDGE ( 'NONE', *, *, #94, .F. ) ;
#310 = PERSON_AND_ORGANIZATION_ROLE ( 'classification_officer' ) ;
#311 = DIRECTION ( 'NONE',  ( -1.000000000000000000, -0.000000000000000000, -0.000000000000000000 ) ) ;
#312 = CARTESIAN_POINT ( 'NONE',  ( -1.614212418857619014, 0.000000000000000000, 12.69999999999999929 ) ) ;
#313 = AXIS2_PLACEMENT_3D ( 'NONE', #68, #164, #276 ) ;
#314 = APPROVAL_PERSON_ORGANIZATION ( #248, #5, #90 ) ;
#315 = ADVANCED_FACE ( 'NONE', ( #159, #319 ), #84, .F. ) ;
#316 = PLANE ( 'NONE',  #302 ) ;
#317 = APPLICATION_PROTOCOL_DEFINITION ( 'international standard', 'config_control_design', 1994, #235 ) ;
#318 = DIRECTION ( 'NONE',  ( -1.000000000000000000, -0.000000000000000000, -0.000000000000000000 ) ) ;
#319 = FACE_BOUND ( 'NONE', #306, .T. ) ;
#320 = AXIS2_PLACEMENT_3D ( 'NONE', #229, #255, #196 ) ;
#321 = APPROVAL_PERSON_ORGANIZATION ( #46, #284, #117 ) ;
#322 = DIRECTION ( 'NONE',  ( 0.000000000000000000, 0.000000000000000000, 1.000000000000000000 ) ) ;
#323 = ORIENTED_EDGE ( 'NONE', *, *, #60, .T. ) ;
#324 = CARTESIAN_POINT ( 'NONE',  ( -1.614212418857619014, 0.000000000000000000, 0.000000000000000000 ) ) ;
#325 = PERSON_AND_ORGANIZATION_ROLE ( 'design_supplier' ) ;
#326 = CALENDAR_DATE ( 2020, 22, 12 ) ;
#327 = ORIENTED_EDGE ( 'NONE', *, *, #124, .F. ) ;
#328 = DIRECTION ( 'NONE',  ( 0.000000000000000000, 0.000000000000000000, 1.000000000000000000 ) ) ;
#329 = CC_DESIGN_DATE_AND_TIME_ASSIGNMENT ( #113, #297, ( #237 ) ) ;
#330 = VERTEX_POINT ( 'NONE', #267 ) ;
#331 = CARTESIAN_POINT ( 'NONE',  ( 3.000000000000000888, 0.000000000000000000, 0.000000000000000000 ) ) ;
#332 = EDGE_LOOP ( 'NONE', ( #79, #121, #283, #304 ) ) ;
#333 = DESIGN_CONTEXT ( 'detailed design', #235, 'design' ) ;
#334 = CARTESIAN_POINT ( 'NONE',  ( -1.614212418857619014, 0.000000000000000000, 0.000000000000000000 ) ) ;
#335 = ORIENTED_EDGE ( 'NONE', *, *, #187, .T. ) ;
ENDSEC;
END-ISO-10303-21;
